User Tools

Site Tools


bass_tab_blue_oyster_cult_dont_fear_the_reaper

Bass Tab - Blue Oyster Cult - Don't Fear The Reaper

[Riff]
G|--------------------------|--------------------------||--------------------------|--------------------------||
D|--------------------------|--------------------------||--------------------------|--------------------------||
A|--------------------------|--------------------2--5--||--------------------------|--------------------2--5--||
E|--5--5--x--5--3--3--x--3--|--1--1--x--1--3--3--------||--5--5--x--5--3--3--x--3--|--1--1--x--1--3--3--------||

[Verse]
G|--------------------------|--------------------------||--------------------------|--------------------------||
D|-----------7--------------|-----------3--------------||--------------------------|-----------3--------------||
A|--------7-----------5--x--|--------3-----------2--5--||--------7--x--------5--x--|--------3-----------2--5--||
E|--5--5--------3--3--------|--1--1--------3--3--------||--5--5--------3--3--------|--1--1--------3--3--------||

G|--------------------------|--------------------------||--------------------------|--------------------------||
D|-----------x--------------|-----------3--------------||-----------x--------------|-----------3--------------||
A|--------7-----------5--x--|--------3-----------2--5--||--------7-----------5--x--|--------3-----------2--5--||
E|--5--5--------3--3--------|--1--1--------3--3--------||--5--5--------3--3--------|--1--1--------3--3--------||

[Pre-Chorus]
G|--------------------------|--------------------------||--------------------------|--------------------------||
D|--------------------------|--------------5--7--x-----||--------------------------|--------------------------||
A|--------------------------|--------5--7--------------||--------------------------|--------------------------||
E|--1-----1--1--3-----3--3--|--5--------------------3--||--1--1--1--1--0--0--0--0--|--5--5--x--5--3--3--x--3--||

[Chorus]
G|--------------------------|--------------------------||--------------------------|--------------------------||
D|--------------------------|-----------7-----------5--||--------------------------|-----------7-----------5--||
A|--------0--3--------2--5--|--------7-----------5-----||--------0--3--------2--5--|--------7-----------5-----||
E|--1--1--------3--3--------|--5--5--------3--3--------||--1--1--------3--3--------|--5--5--------3--3--------||

G|--------------------------|--------------------------||--------------------------|--------------------------||
D|--------------------------|-----------7-----------5--||--------------------------|-----------7-----------5--||
A|--------0--3--------2--5--|--------7-----------5-----||--------0--3--------2--5--|--------7-----------5-----||
E|--1--1--------3--3--------|--5--5--------3--3--------||--1--1--------3--3--------|--5--5--------3--3--------||

                             [Solo]
G|--------------------------|--------------------------||--------------------------|--------------------------||
D|--------------------------|-----------7-----------5--||--------------------------|-----------7-----------5--||
A|--------0--3--------2--5--|--------7-----------5-----||--------0--3--------2--5--|--------7-----------5-----||
E|--1--1--------3--3--------|--5--5--------3--3--------||--1--1--------3--3--------|--5--5--------3--3--------||

G|--------------------------|--------------------------||--------------------------|--------------------------||
D|--------------------------|-----------7-----------5--||--------------------------|-----------7-----------5--||
A|--------0--3--------2--5--|--------7-----------5-----||--------0--3--------2--5--|--------7-----------5-----||
E|--1--1--------3--3--------|--5--5--------3--3--------||--1--1--------3--3--------|--5--5--------3--3--------||

                                                                                    [Break]
G|--------------------------|--------------------------||--------------------------|--------------------------||
D|--------------------------|-----------7-----------5--||--------------------------|--------------------------||
A|--------0--3--------2--5--|--------7-----------5-----||--------0--3--------2--5--|--0-----------------------||
E|--1--1--------3--3--------|--5--5--------3--3--------||--1--1--------3--3--------|--------------------------||

...

[Riff]
G|--------------------------|--------------------------||--------------------------|--------------------------||
D|--------------------------|--------------------------||--------------------------|--------------------------||
A|--------------------------|--------------------2--5--||--------------------------|--------------------2--5--||
E|--5--5--x--5--3--3--x--3--|--1--1--x--1--3--3--------||--5--5--x--5--3--3--x--3--|--1--1--x--1--3--3--------||

[Verse]
G|--------------------------|--------------------------||--------------------------|--------------------------||
D|-----------7--------------|-----------3--------------||-----------x--------------|-----------3--------------||
A|--------7-----------5--x--|--------3-----------2--5--||--------7-----------5--x--|--------3-----------2--5--||
E|--5--5--------3--3--------|--1--1--------3--3--------||--5--5--------3--3--------|--1--1--------3--3--------||

G|--------------------------|--------------------------||--------------------------|--------------------------||
D|-----------x--------------|-----------3--------------||-----------x--------------|-----------3--------------||
A|--------7-----------5--x--|--------3-----------2--5--||--------7-----------5--x--|--------3-----------2--5--||
E|--5--5--------3--3--------|--1--1--------3--3--------||--5--5--------3--3--------|--1--1--------3--3--------||

[Pre-Chorus]
G|--------------------------|--------------------------||--------------------------|--------------------------||
D|--------------------------|--------------5--7--x-----||--------------------------|--------------------------||
A|--------------------------|--------5--7--------------||--------------------------|--------------------------||
E|--1-----1--1--3-----3--3--|--5--------------------3--||--5--5--x--5--3--3--x--3--|--1--1--x--1--3--3--------||

[Pre-Chorus - Part 2]
G|--------------------------|--------------------------||--------------------------|--------------------------||
D|--------------------------|--------------------------||--------------------------|--------------------------||
A|--------------------------|--------------------------||--------------------------|--------------------------||
E|--1--1--x--1--3--3--x--3--|--5--5--x--5--3--3--x--3--||--1--1--x--1--3--3--x--3--|--5--5--x--5--3--3--x--3--||

G|--------------------------|--------------------------||--------------------------|--------------------------||
D|--------------------------|--------------------------||--------------------------|--------------------------||
A|--------------------------|--------------------------||--------------------------|--------------------------||
E|--1--1--x--1--3--3--x--3--|--5--5--x--5--3--3--x--3--||--1--1--x--1--3--3--x--3--|--5--5--x--5--3--3--x--3--||

[Chorus]
G|--------------------------|--------------------------||--------------------------|--------------------------||
D|--------------------------|-----------7-----------5--||--------------------------|-----------7-----------5--||
A|--------0--3--------2--5--|--------7-----------5-----||--------0--3--------2--5--|--------7-----------5-----||
E|--1--1--------3--3--------|--5--5--------3--3--------||--1--1--------3--3--------|--5--5--------3--3--------||

G|--------------------------|--------------------------||--------------------------|--------------------------||
D|--------------------------|-----------7-----------5--||--------------------------|-----------7-----------5--||
A|--------0--3--------2--5--|--------7-----------5-----||--------0--3--------2--5--|--------7-----------5-----||
E|--1--1--------3--3--------|--5--5--------3--3--------||--1--1--------3--3--------|--5--5--------3--3--------||

                             [Solo]
G|--------------------------|--------------------------||--------------------------|--------------------------||
D|--------------------------|-----------7-----------5--||--------------------------|-----------7-----------5--||
A|--------0--3--------2--5--|--------7-----------5-----||--------0--3--------2--5--|--------7-----------5-----||
E|--1--1--------3--3--------|--5--5--------3--3--------||--1--1--------3--3--------|--5--5--------3--3--------||

G|--------------------------|--------------------------||--------------------------|--------------------------||
D|--------------------------|-----------7-----------5--||--------------------------|-----------7-----------5--||
A|--------0--3--------2--5--|--------7-----------5-----||--------0--3--------2--5--|--------7-----------5-----||
E|--1--1--------3--3--------|--5--5--------3--3--------||--1--1--------3--3--------|--5--5--------3--3--------||

                                                                                    [Interlude]
G|--------------------------|--------------------------||--------------------------|--------------------------||
D|--------------------------|-----------7-----------5--||--------------------------|--------------------------||
A|--------0--3--------2--5--|--------7-----------5-----||--------0--3--------2--5--|--0-----------------------||
E|--1--1--------3--3--------|--5--5--------3--3--------||--1--1--------3--3--------|--------------------------||

...

[Amazing Solo]
G|--------------------------|--------------------------||--------------------------|--------------------------||
D|--------------------------|-----------5--------3-----||--------------------------|-----------6--------5-----||
A|--------------------------|--------------------------||-----------2--------5-----|-(5)----------------------||
E|--1--------3--------4-----|-(4)----------------------||--3-----------------------|--------------------------||

G|--------------------------|--------------------------||--------------------------|--------------------------||
D|--------------------------|-----------5--------3-----||--------------------------|-----------6--------5-----||
A|--------------------------|--------------------------||-----------2--------5-----|-(5)----------------------||
E|--1--------3--------4-----|-(4)----------------------||--3-----------------------|--------------------------||

G|--------------------------|--------------------------||--------------------------|--------------------------||
D|--------------------------|-----------5--------3-----||--------------------------|-----------6--------5-----||
A|--------------------------|--------------------------||-----------2--------5-----|-(5)----------------------||
E|--1--------3--------4-----|-(4)----------------------||--3-----------------------|--------------------------||

G|--------------------------|--------------------------||--------------------------|--------------------------||
D|--------------------------|-----------5--------3-----||--------------------------|-----------6--------5-----||
A|--------------------------|--------------------------||-----------2--------5-----|-(5)----------------------||
E|--1--------3--------4-----|-(4)----------------------||--3-----------------------|--------------------------||

G|--------------------------|--------------------------||--------------------------|--------------------------||
D|--------------------------|--------------------------||--------------------------|--------------------------||
A|--------------------------|--------------------------||--------------------------|--------------------------||
E|--1-----------------------|-(1)----------------------||--3-----------------------|-(3)----------------------||

G|--------------------------|--------------------------||--------------------------|--------------------------||
D|--------------------------|--------------------------||--------------------------|--------------------------||
A|--------------------------|--------------------------||--------------------------|--------------------------||
E|--1-----------------------|-(1)----------------------||--3-----------------------|-(3)----------------------||

[Re-Intro]
...

[Riff]
G|--------------------------|--------------------------||--------------------------|--------------------------||
D|--------------------------|--------------------------||--------------------------|--------------------------||
A|--------------------------|--------------------2--5--||--------------------------|--------------------2--5--||
E|--5--5--x--5--3--3--x--3--|--1--1--x--1--3--3--------||--5--5--x--5--3--3--x--3--|--1--1--x--1--3--3--------||
bass_tab_blue_oyster_cult_dont_fear_the_reaper.txt · Last modified: 2022/03/04 07:27 by stephen